ISO-10303-21;
HEADER;
FILE_DESCRIPTION (( 'STEP AP203' ),
    '1' );
FILE_NAME ('End Cap SDR17_001 115 0140 0160.step',
    '2019-12-16T11:43:30',
    ( '' ),
    ( '' ),
    'SwSTEP 2.0',
    'SolidWorks 2019',
    '' );
FILE_SCHEMA (( 'CONFIG_CONTROL_DESIGN' ));
ENDSEC;

DATA;
#1 = PRODUCT_DEFINITION ( 'BÝLÝNMEYEN', '', #63, #163 ) ;
#2 = DIRECTION ( 'NONE',  ( -0.0000000000000000000, -1.000000000000000000, -0.0000000000000000000 ) ) ;
#3 = PRODUCT_DEFINITION_SHAPE ( 'NONE', 'NONE',  #1 ) ;
#4 = VERTEX_POINT ( 'NONE', #258 ) ;
#5 = CARTESIAN_POINT ( 'NONE',  ( 0.0000000000000000000, 105.5122931705627138, -79.99999999999998579 ) ) ;
#6 = EDGE_LOOP ( 'NONE', ( #52, #179, #126, #103 ) ) ;
#7 = AXIS2_PLACEMENT_3D ( 'NONE', #13, #108, #205 ) ;
#8 = DIRECTION ( 'NONE',  ( 1.000000000000000000, 0.0000000000000000000, -1.224646799147353207E-16 ) ) ;
#9 = LOCAL_TIME ( 14, 43, 30.00000000000000000, #284 ) ;
#10 = ORIENTED_EDGE ( 'NONE', *, *, #241, .F. ) ;
#11 =( NAMED_UNIT ( * ) PLANE_ANGLE_UNIT ( ) SI_UNIT ( $, .RADIAN. ) );
#12 = VERTEX_POINT ( 'NONE', #36 ) ;
#13 = CARTESIAN_POINT ( 'NONE',  ( 0.0000000000000000000, 0.0000000000000000000, 0.0000000000000000000 ) ) ;
#14 = CARTESIAN_POINT ( 'NONE',  ( 8.633759933988838989E-15, 0.0000000000000000000, 70.50000000000000000 ) ) ;
#15 = CALENDAR_DATE ( 2019, 16, 12 ) ;
#16 = CIRCLE ( 'NONE', #199, 70.50000000000000000 ) ;
#17 = EDGE_CURVE ( 'NONE', #198, #4, #234, .T. ) ;
#18 = DIRECTION ( 'NONE',  ( 0.0000000000000000000, 0.0000000000000000000, -1.000000000000000000 ) ) ;
#19 = PRODUCT ( 'End Cap SDR17_001 115 0140 0160', 'End Cap SDR17_001 115 0140 0160', '', ( #298 ) ) ;
#20 = PERSON_AND_ORGANIZATION_ROLE ( 'creator' ) ;
#21 = AXIS2_PLACEMENT_3D ( 'NONE', #133, #238, #18 ) ;
#22 = CC_DESIGN_APPROVAL ( #59, ( #1 ) ) ;
#23 = ADVANCED_FACE ( 'NONE', ( #209 ), #237, .F. ) ;
#24 = COORDINATED_UNIVERSAL_TIME_OFFSET ( 3, 0, .AHEAD. ) ;
#25 = CARTESIAN_POINT ( 'NONE',  ( 0.0000000000000000000, -204.9774243522634265, -2.565283544164343787 ) ) ;
#26 = CC_DESIGN_PERSON_AND_ORGANIZATION_ASSIGNMENT ( #118, #217, ( #63 ) ) ;
#27 =( GEOMETRIC_REPRESENTATION_CONTEXT ( 3 ) GLOBAL_UNCERTAINTY_ASSIGNED_CONTEXT ( ( #282 ) ) GLOBAL_UNIT_ASSIGNED_CONTEXT ( ( #34, #11, #296 ) ) REPRESENTATION_CONTEXT ( 'NONE', 'WORKASPACE' ) );
#28 = CARTESIAN_POINT ( 'NONE',  ( 0.0000000000000000000, 0.0000000000000000000, -79.99999999999998579 ) ) ;
#29 = ORIENTED_EDGE ( 'NONE', *, *, #114, .T. ) ;
#30 = CARTESIAN_POINT ( 'NONE',  ( 0.0000000000000000000, 0.0000000000000000000, 0.0000000000000000000 ) ) ;
#31 = VERTEX_POINT ( 'NONE', #84 ) ;
#32 = DIRECTION ( 'NONE',  ( -0.0000000000000000000, -1.000000000000000000, -0.0000000000000000000 ) ) ;
#33 = ORIENTED_EDGE ( 'NONE', *, *, #158, .T. ) ;
#34 =( LENGTH_UNIT ( ) NAMED_UNIT ( * ) SI_UNIT ( .MILLI., .METRE. ) );
#35 = ORIENTED_EDGE ( 'NONE', *, *, #241, .T. ) ;
#36 = CARTESIAN_POINT ( 'NONE',  ( -1.432716039157874320E-14, 105.5122931705627138, 0.0000000000000000000 ) ) ;
#37 = APPROVAL_STATUS ( 'not_yet_approved' ) ;
#38 = ADVANCED_FACE ( 'NONE', ( #157, #260 ), #39, .T. ) ;
#39 = PLANE ( 'NONE',  #21 ) ;
#40 = LINE ( 'NONE', #218, #206 ) ;
#41 = DATE_AND_TIME ( #262, #104 ) ;
#42 = EDGE_CURVE ( 'NONE', #271, #4, #229, .T. ) ;
#43 = PERSON_AND_ORGANIZATION ( #242, #97 ) ;
#44 = AXIS2_PLACEMENT_3D ( 'NONE', #178, #272, #53 ) ;
#45 = LOCAL_TIME ( 14, 43, 30.00000000000000000, #24 ) ;
#46 = DIRECTION ( 'NONE',  ( -0.0000000000000000000, -1.000000000000000000, -0.0000000000000000000 ) ) ;
#47 = LINE ( 'NONE', #144, #148 ) ;
#48 = DIRECTION ( 'NONE',  ( 0.0000000000000000000, 0.0000000000000000000, -1.000000000000000000 ) ) ;
#49 = CARTESIAN_POINT ( 'NONE',  ( 3.141566281266241430E-16, -204.9774243522634265, 2.565283544164343787 ) ) ;
#50 = ORIENTED_EDGE ( 'NONE', *, *, #166, .F. ) ;
#51 = FACE_OUTER_BOUND ( 'NONE', #274, .T. ) ;
#52 = ORIENTED_EDGE ( 'NONE', *, *, #190, .T. ) ;
#53 = DIRECTION ( 'NONE',  ( 0.0000000000000000000, 0.0000000000000000000, -1.000000000000000000 ) ) ;
#54 = EDGE_LOOP ( 'NONE', ( #255, #35, #290 ) ) ;
#55 = AXIS2_PLACEMENT_3D ( 'NONE', #228, #8, #105 ) ;
#56 = APPLICATION_PROTOCOL_DEFINITION ( 'international standard', 'config_control_design', 1994, #193 ) ;
#57 = VERTEX_POINT ( 'NONE', #86 ) ;
#58 = PERSON_AND_ORGANIZATION_ROLE ( 'design_owner' ) ;
#59 = APPROVAL ( #37, 'BELÝRTÝLMEMÝÞ' ) ;
#60 = DIRECTION ( 'NONE',  ( 0.0000000000000000000, 0.0000000000000000000, -1.000000000000000000 ) ) ;
#61 = DIRECTION ( 'NONE',  ( 0.0000000000000000000, 0.0000000000000000000, 1.000000000000000000 ) ) ;
#62 = AXIS2_PLACEMENT_3D ( 'NONE', #254, #32, #129 ) ;
#63 = PRODUCT_DEFINITION_FORMATION_WITH_SPECIFIED_SOURCE ( 'HERHANGÝ', '', #19, .NOT_KNOWN. ) ;
#64 = CIRCLE ( 'NONE', #55, 310.5003146005915937 ) ;
#65 = EDGE_CURVE ( 'NONE', #31, #256, #216, .T. ) ;
#66 = APPROVAL_ROLE ( '' ) ;
#67 = CALENDAR_DATE ( 2019, 16, 12 ) ;
#68 = DIRECTION ( 'NONE',  ( 0.0000000000000000000, 0.0000000000000000000, -1.000000000000000000 ) ) ;
#69 = AXIS2_PLACEMENT_3D ( 'NONE', #76, #176, #270 ) ;
#70 = CARTESIAN_POINT ( 'NONE',  ( 0.0000000000000000000, 0.0000000000000000000, 0.0000000000000000000 ) ) ;
#71 = DIRECTION ( 'NONE',  ( 0.0000000000000000000, 0.0000000000000000000, -1.000000000000000000 ) ) ;
#72 = CARTESIAN_POINT ( 'NONE',  ( 0.0000000000000000000, 0.0000000000000000000, 0.0000000000000000000 ) ) ;
#73 = TOROIDAL_SURFACE ( 'NONE', #69, 2.565283544164343787, 320.0000000000000568 ) ;
#74 = ORIENTED_EDGE ( 'NONE', *, *, #146, .T. ) ;
#75 = AXIS2_PLACEMENT_3D ( 'NONE', #30, #127, #225 ) ;
#76 = CARTESIAN_POINT ( 'NONE',  ( 0.0000000000000000000, -204.9774243522634265, 0.0000000000000000000 ) ) ;
#77 = ADVANCED_FACE ( 'NONE', ( #159 ), #213, .T. ) ;
#78 = EDGE_LOOP ( 'NONE', ( #74, #152 ) ) ;
#79 = CYLINDRICAL_SURFACE ( 'NONE', #44, 70.50000000000000000 ) ;
#80 = ORIENTED_EDGE ( 'NONE', *, *, #288, .T. ) ;
#81 = CC_DESIGN_PERSON_AND_ORGANIZATION_ASSIGNMENT ( #93, #191, ( #140 ) ) ;
#82 = ORIENTED_EDGE ( 'NONE', *, *, #65, .T. ) ;
#83 = CIRCLE ( 'NONE', #75, 79.99999999999998579 ) ;
#84 = CARTESIAN_POINT ( 'NONE',  ( 1.127570259384924611E-14, 115.0122931705627423, 0.0000000000000000000 ) ) ;
#85 = PERSON_AND_ORGANIZATION_ROLE ( 'creator' ) ;
#86 = CARTESIAN_POINT ( 'NONE',  ( 9.797174393178824474E-15, 0.0000000000000000000, 79.99999999999998579 ) ) ;
#87 = AXIS2_PLACEMENT_3D ( 'NONE', #49, #149, #251 ) ;
#88 = CC_DESIGN_SECURITY_CLASSIFICATION ( #140, ( #63 ) ) ;
#89 = EDGE_CURVE ( 'NONE', #106, #57, #40, .T. ) ;
#90 = AXIS2_PLACEMENT_3D ( 'NONE', #72, #172, #267 ) ;
#91 = CIRCLE ( 'NONE', #87, 320.0000000000000568 ) ;
#92 = DATE_TIME_ROLE ( 'creation_date' ) ;
#93 = PERSON_AND_ORGANIZATION ( #242, #97 ) ;
#94 = CARTESIAN_POINT ( 'NONE',  ( 0.0000000000000000000, 0.0000000000000000000, -79.99999999999998579 ) ) ;
#95 = SHAPE_DEFINITION_REPRESENTATION ( #3, #184 ) ;
#96 = DIRECTION ( 'NONE',  ( 0.0000000000000000000, 0.0000000000000000000, -1.000000000000000000 ) ) ;
#97 = ORGANIZATION ( 'BELÝRTÝLMEMÝÞ', 'BELÝRTÝLMEMÝÞ', '' ) ;
#98 = CYLINDRICAL_SURFACE ( 'NONE', #123, 79.99999999999998579 ) ;
#99 = DIRECTION ( 'NONE',  ( 0.0000000000000000000, 0.0000000000000000000, -1.000000000000000000 ) ) ;
#100 = VERTEX_POINT ( 'NONE', #94 ) ;
#101 = EDGE_CURVE ( 'NONE', #293, #198, #16, .T. ) ;
#102 = FACE_OUTER_BOUND ( 'NONE', #177, .T. ) ;
#103 = ORIENTED_EDGE ( 'NONE', *, *, #208, .F. ) ;
#104 = LOCAL_TIME ( 14, 43, 30.00000000000000000, #164 ) ;
#105 = DIRECTION ( 'NONE',  ( -1.224646799147353207E-16, 0.0000000000000000000, -1.000000000000000000 ) ) ;
#106 = VERTEX_POINT ( 'NONE', #167 ) ;
#107 = EDGE_LOOP ( 'NONE', ( #273, #224 ) ) ;
#108 = DIRECTION ( 'NONE',  ( 0.0000000000000000000, 0.0000000000000000000, 1.000000000000000000 ) ) ;
#109 = DIRECTION ( 'NONE',  ( -0.0000000000000000000, -1.000000000000000000, -0.0000000000000000000 ) ) ;
#110 = AXIS2_PLACEMENT_3D ( 'NONE', #223, #2, #99 ) ;
#111 = CIRCLE ( 'NONE', #110, 70.50000000000000000 ) ;
#112 = DATE_AND_TIME ( #15, #161 ) ;
#113 = CARTESIAN_POINT ( 'NONE',  ( 0.0000000000000000000, 0.0000000000000000000, 0.0000000000000000000 ) ) ;
#114 = EDGE_CURVE ( 'NONE', #198, #293, #188, .T. ) ;
#115 = CC_DESIGN_PERSON_AND_ORGANIZATION_ASSIGNMENT ( #299, #85, ( #1 ) ) ;
#116 = VECTOR ( 'NONE', #124, 1000.000000000000000 ) ;
#117 = AXIS2_PLACEMENT_3D ( 'NONE', #171, #266, #48 ) ;
#118 = PERSON_AND_ORGANIZATION ( #242, #97 ) ;
#119 = DIRECTION ( 'NONE',  ( 0.0000000000000000000, 0.0000000000000000000, -1.000000000000000000 ) ) ;
#120 = CALENDAR_DATE ( 2019, 16, 12 ) ;
#121 = CARTESIAN_POINT ( 'NONE',  ( 0.0000000000000000000, 105.5122931705627138, 0.0000000000000000000 ) ) ;
#122 = DIRECTION ( 'NONE',  ( -1.000000000000000000, 0.0000000000000000000, 0.0000000000000000000 ) ) ;
#123 = AXIS2_PLACEMENT_3D ( 'NONE', #196, #287, #71 ) ;
#124 = DIRECTION ( 'NONE',  ( -0.0000000000000000000, -1.000000000000000000, -0.0000000000000000000 ) ) ;
#125 = ADVANCED_FACE ( 'NONE', ( #247 ), #174, .F. ) ;
#126 = ORIENTED_EDGE ( 'NONE', *, *, #146, .F. ) ;
#127 = DIRECTION ( 'NONE',  ( -0.0000000000000000000, -1.000000000000000000, -0.0000000000000000000 ) ) ;
#128 = ORIENTED_EDGE ( 'NONE', *, *, #214, .T. ) ;
#129 = DIRECTION ( 'NONE',  ( 0.0000000000000000000, 0.0000000000000000000, -1.000000000000000000 ) ) ;
#130 = ORIENTED_EDGE ( 'NONE', *, *, #288, .F. ) ;
#131 = ORIENTED_EDGE ( 'NONE', *, *, #42, .T. ) ;
#132 = APPROVAL_ROLE ( '' ) ;
#133 = CARTESIAN_POINT ( 'NONE',  ( 70.50000000000000000, 0.0000000000000000000, 0.0000000000000000000 ) ) ;
#134 = CIRCLE ( 'NONE', #117, 79.99999999999998579 ) ;
#135 = EDGE_CURVE ( 'NONE', #106, #256, #168, .T. ) ;
#136 = CARTESIAN_POINT ( 'NONE',  ( 0.0000000000000000000, -204.9774243522634265, 0.0000000000000000000 ) ) ;
#137 = CC_DESIGN_DATE_AND_TIME_ASSIGNMENT ( #165, #263, ( #140 ) ) ;
#138 = APPROVAL_DATE_TIME ( #41, #233 ) ;
#139 = AXIS2_PLACEMENT_3D ( 'NONE', #25, #122, #221 ) ;
#140 = SECURITY_CLASSIFICATION ( '', '', #303 ) ;
#141 = APPROVAL_STATUS ( 'not_yet_approved' ) ;
#142 = MANIFOLD_SOLID_BREP ( 'Döndür1', #244 ) ;
#143 = DIRECTION ( 'NONE',  ( 0.0000000000000000000, 0.0000000000000000000, -1.000000000000000000 ) ) ;
#144 = CARTESIAN_POINT ( 'NONE',  ( 0.0000000000000000000, 0.0000000000000000000, -70.50000000000000000 ) ) ;
#145 = CARTESIAN_POINT ( 'NONE',  ( 8.633759933988838989E-15, 98.00000000000005684, 70.50000000000000000 ) ) ;
#146 = EDGE_CURVE ( 'NONE', #100, #57, #160, .T. ) ;
#147 = CIRCLE ( 'NONE', #139, 310.5003146005915937 ) ;
#148 = VECTOR ( 'NONE', #248, 1000.000000000000000 ) ;
#149 = DIRECTION ( 'NONE',  ( 1.000000000000000000, 0.0000000000000000000, -1.224646799147353207E-16 ) ) ;
#150 = ORIENTED_EDGE ( 'NONE', *, *, #101, .F. ) ;
#151 = CYLINDRICAL_SURFACE ( 'NONE', #62, 79.99999999999998579 ) ;
#152 = ORIENTED_EDGE ( 'NONE', *, *, #252, .T. ) ;
#153 = AXIS2_PLACEMENT_3D ( 'NONE', #70, #169, #265 ) ;
#154 = EDGE_LOOP ( 'NONE', ( #297, #150, #33, #131 ) ) ;
#155 = ORIENTED_EDGE ( 'NONE', *, *, #17, .T. ) ;
#156 = APPLICATION_PROTOCOL_DEFINITION ( 'international standard', 'config_control_design', 1994, #212 ) ;
#157 = FACE_OUTER_BOUND ( 'NONE', #78, .T. ) ;
#158 = EDGE_CURVE ( 'NONE', #293, #271, #47, .T. ) ;
#159 = FACE_OUTER_BOUND ( 'NONE', #54, .T. ) ;
#160 = CIRCLE ( 'NONE', #153, 79.99999999999998579 ) ;
#161 = LOCAL_TIME ( 14, 43, 30.00000000000000000, #235 ) ;
#162 = AXIS2_PLACEMENT_3D ( 'NONE', #121, #194, #286 ) ;
#163 = DESIGN_CONTEXT ( 'detailed design', #212, 'design' ) ;
#164 = COORDINATED_UNIVERSAL_TIME_OFFSET ( 3, 0, .AHEAD. ) ;
#165 = DATE_AND_TIME ( #67, #9 ) ;
#166 = EDGE_CURVE ( 'NONE', #12, #293, #147, .T. ) ;
#167 = CARTESIAN_POINT ( 'NONE',  ( 9.797174393178824474E-15, 105.5122931705627138, 79.99999999999998579 ) ) ;
#168 = CIRCLE ( 'NONE', #162, 79.99999999999998579 ) ;
#169 = DIRECTION ( 'NONE',  ( -0.0000000000000000000, -1.000000000000000000, -0.0000000000000000000 ) ) ;
#170 = CC_DESIGN_DATE_AND_TIME_ASSIGNMENT ( #302, #92, ( #1 ) ) ;
#171 = CARTESIAN_POINT ( 'NONE',  ( 0.0000000000000000000, 105.5122931705627138, 0.0000000000000000000 ) ) ;
#172 = DIRECTION ( 'NONE',  ( -0.0000000000000000000, -1.000000000000000000, -0.0000000000000000000 ) ) ;
#173 = AXIS2_PLACEMENT_3D ( 'NONE', #220, #306, #96 ) ;
#174 = TOROIDAL_SURFACE ( 'NONE', #173, 2.565283544164343787, 310.5003146005915937 ) ;
#175 = ORIENTED_EDGE ( 'NONE', *, *, #101, .T. ) ;
#176 = DIRECTION ( 'NONE',  ( -0.0000000000000000000, -1.000000000000000000, -0.0000000000000000000 ) ) ;
#177 = EDGE_LOOP ( 'NONE', ( #10, #82, #253 ) ) ;
#178 = CARTESIAN_POINT ( 'NONE',  ( 0.0000000000000000000, 0.0000000000000000000, 0.0000000000000000000 ) ) ;
#179 = ORIENTED_EDGE ( 'NONE', *, *, #89, .T. ) ;
#180 = AXIS2_PLACEMENT_3D ( 'NONE', #264, #46, #143 ) ;
#181 = EDGE_LOOP ( 'NONE', ( #50, #80, #29 ) ) ;
#182 = CARTESIAN_POINT ( 'NONE',  ( 0.0000000000000000000, -204.9774243522634265, 0.0000000000000000000 ) ) ;
#183 = COORDINATED_UNIVERSAL_TIME_OFFSET ( 3, 0, .AHEAD. ) ;
#184 = ADVANCED_BREP_SHAPE_REPRESENTATION ( 'End Cap SDR17_001 115 0140 0160', ( #142, #7 ), #27 ) ;
#185 = ADVANCED_FACE ( 'NONE', ( #307 ), #98, .T. ) ;
#186 = CARTESIAN_POINT ( 'NONE',  ( 0.0000000000000000000, -204.9774243522634265, -2.565283544164343787 ) ) ;
#187 = APPROVAL_PERSON_ORGANIZATION ( #43, #195, #246 ) ;
#188 = CIRCLE ( 'NONE', #180, 70.50000000000000000 ) ;
#189 = PERSON_AND_ORGANIZATION ( #242, #97 ) ;
#190 = EDGE_CURVE ( 'NONE', #256, #106, #134, .T. ) ;
#191 = PERSON_AND_ORGANIZATION_ROLE ( 'classification_officer' ) ;
#192 = CARTESIAN_POINT ( 'NONE',  ( 0.0000000000000000000, 98.00000000000005684, 0.0000000000000000000 ) ) ;
#193 = APPLICATION_CONTEXT ( 'configuration controlled 3d designs of mechanical parts and assemblies' ) ;
#194 = DIRECTION ( 'NONE',  ( -0.0000000000000000000, -1.000000000000000000, -0.0000000000000000000 ) ) ;
#195 = APPROVAL ( #141, 'BELÝRTÝLMEMÝÞ' ) ;
#196 = CARTESIAN_POINT ( 'NONE',  ( 0.0000000000000000000, 0.0000000000000000000, 0.0000000000000000000 ) ) ;
#197 = FACE_OUTER_BOUND ( 'NONE', #269, .T. ) ;
#198 = VERTEX_POINT ( 'NONE', #145 ) ;
#199 = AXIS2_PLACEMENT_3D ( 'NONE', #192, #285, #68 ) ;
#200 = LOCAL_TIME ( 14, 43, 30.00000000000000000, #183 ) ;
#201 = ORIENTED_EDGE ( 'NONE', *, *, #89, .F. ) ;
#202 = CARTESIAN_POINT ( 'NONE',  ( 0.0000000000000000000, 98.00000000000005684, -70.50000000000000000 ) ) ;
#203 = ORIENTED_EDGE ( 'NONE', *, *, #114, .F. ) ;
#204 = EDGE_LOOP ( 'NONE', ( #130, #232, #175 ) ) ;
#205 = DIRECTION ( 'NONE',  ( 1.000000000000000000, 0.0000000000000000000, 0.0000000000000000000 ) ) ;
#206 = VECTOR ( 'NONE', #304, 1000.000000000000000 ) ;
#207 = AXIS2_PLACEMENT_3D ( 'NONE', #136, #239, #119 ) ;
#208 = EDGE_CURVE ( 'NONE', #256, #100, #249, .T. ) ;
#209 = FACE_OUTER_BOUND ( 'NONE', #181, .T. ) ;
#210 = APPROVAL_DATE_TIME ( #112, #59 ) ;
#211 = DIRECTION ( 'NONE',  ( -0.0000000000000000000, -1.000000000000000000, -0.0000000000000000000 ) ) ;
#212 = APPLICATION_CONTEXT ( 'configuration controlled 3d designs of mechanical parts and assemblies' ) ;
#213 = TOROIDAL_SURFACE ( 'NONE', #207, 2.565283544164343787, 320.0000000000000568 ) ;
#214 = EDGE_CURVE ( 'NONE', #4, #271, #111, .T. ) ;
#215 = AXIS2_PLACEMENT_3D ( 'NONE', #186, #278, #61 ) ;
#216 = CIRCLE ( 'NONE', #215, 320.0000000000000568 ) ;
#217 = PERSON_AND_ORGANIZATION_ROLE ( 'design_supplier' ) ;
#218 = CARTESIAN_POINT ( 'NONE',  ( 9.797174393178824474E-15, 0.0000000000000000000, 79.99999999999998579 ) ) ;
#219 = DATE_AND_TIME ( #120, #45 ) ;
#220 = CARTESIAN_POINT ( 'NONE',  ( 0.0000000000000000000, -204.9774243522634265, 0.0000000000000000000 ) ) ;
#221 = DIRECTION ( 'NONE',  ( 0.0000000000000000000, 0.0000000000000000000, 1.000000000000000000 ) ) ;
#222 = AXIS2_PLACEMENT_3D ( 'NONE', #113, #211, #300 ) ;
#223 = CARTESIAN_POINT ( 'NONE',  ( 0.0000000000000000000, 0.0000000000000000000, 0.0000000000000000000 ) ) ;
#224 = ORIENTED_EDGE ( 'NONE', *, *, #214, .F. ) ;
#225 = DIRECTION ( 'NONE',  ( 0.0000000000000000000, 0.0000000000000000000, -1.000000000000000000 ) ) ;
#226 = ORIENTED_EDGE ( 'NONE', *, *, #252, .F. ) ;
#227 = ADVANCED_FACE ( 'NONE', ( #197 ), #289, .F. ) ;
#228 = CARTESIAN_POINT ( 'NONE',  ( 3.141566281266241430E-16, -204.9774243522634265, 2.565283544164343787 ) ) ;
#229 = CIRCLE ( 'NONE', #222, 70.50000000000000000 ) ;
#230 = CC_DESIGN_APPROVAL ( #195, ( #140 ) ) ;
#231 = ORIENTED_EDGE ( 'NONE', *, *, #158, .F. ) ;
#232 = ORIENTED_EDGE ( 'NONE', *, *, #166, .T. ) ;
#233 = APPROVAL ( #283, 'BELÝRTÝLMEMÝÞ' ) ;
#234 = LINE ( 'NONE', #14, #240 ) ;
#235 = COORDINATED_UNIVERSAL_TIME_OFFSET ( 3, 0, .AHEAD. ) ;
#236 = AXIS2_PLACEMENT_3D ( 'NONE', #182, #276, #60 ) ;
#237 = TOROIDAL_SURFACE ( 'NONE', #236, 2.565283544164343787, 310.5003146005915937 ) ;
#238 = DIRECTION ( 'NONE',  ( 0.0000000000000000000, -1.000000000000000000, -0.0000000000000000000 ) ) ;
#239 = DIRECTION ( 'NONE',  ( -0.0000000000000000000, -1.000000000000000000, -0.0000000000000000000 ) ) ;
#240 = VECTOR ( 'NONE', #109, 1000.000000000000000 ) ;
#241 = EDGE_CURVE ( 'NONE', #31, #106, #91, .T. ) ;
#242 = PERSON ( 'BELÝRTÝLMEMÝÞ', 'BELÝRTÝLMEMÝÞ', 'BELÝRTÝLMEMÝÞ', ('BELÝRTÝLMEMÝÞ'), ('BELÝRTÝLMEMÝÞ'), ('BELÝRTÝLMEMÝÞ') ) ;
#243 = PERSON_AND_ORGANIZATION ( #242, #97 ) ;
#244 = CLOSED_SHELL ( 'NONE', ( #23, #77, #185, #227, #301, #38, #279, #268, #125 ) ) ;
#245 = APPROVAL_PERSON_ORGANIZATION ( #189, #233, #66 ) ;
#246 = APPROVAL_ROLE ( '' ) ;
#247 = FACE_OUTER_BOUND ( 'NONE', #204, .T. ) ;
#248 = DIRECTION ( 'NONE',  ( -0.0000000000000000000, -1.000000000000000000, -0.0000000000000000000 ) ) ;
#249 = LINE ( 'NONE', #28, #116 ) ;
#250 = ORIENTED_EDGE ( 'NONE', *, *, #208, .T. ) ;
#251 = DIRECTION ( 'NONE',  ( -1.224646799147353207E-16, 0.0000000000000000000, -1.000000000000000000 ) ) ;
#252 = EDGE_CURVE ( 'NONE', #57, #100, #83, .T. ) ;
#253 = ORIENTED_EDGE ( 'NONE', *, *, #135, .F. ) ;
#254 = CARTESIAN_POINT ( 'NONE',  ( 0.0000000000000000000, 0.0000000000000000000, 0.0000000000000000000 ) ) ;
#255 = ORIENTED_EDGE ( 'NONE', *, *, #65, .F. ) ;
#256 = VERTEX_POINT ( 'NONE', #5 ) ;
#257 = PRODUCT_RELATED_PRODUCT_CATEGORY ( 'detail', '', ( #19 ) ) ;
#258 = CARTESIAN_POINT ( 'NONE',  ( 8.633759933988838989E-15, 0.0000000000000000000, 70.50000000000000000 ) ) ;
#259 = PERSON_AND_ORGANIZATION ( #242, #97 ) ;
#260 = FACE_BOUND ( 'NONE', #107, .T. ) ;
#261 = CC_DESIGN_PERSON_AND_ORGANIZATION_ASSIGNMENT ( #275, #58, ( #19 ) ) ;
#262 = CALENDAR_DATE ( 2019, 16, 12 ) ;
#263 = DATE_TIME_ROLE ( 'classification_date' ) ;
#264 = CARTESIAN_POINT ( 'NONE',  ( 0.0000000000000000000, 98.00000000000005684, 0.0000000000000000000 ) ) ;
#265 = DIRECTION ( 'NONE',  ( 0.0000000000000000000, 0.0000000000000000000, -1.000000000000000000 ) ) ;
#266 = DIRECTION ( 'NONE',  ( -0.0000000000000000000, -1.000000000000000000, -0.0000000000000000000 ) ) ;
#267 = DIRECTION ( 'NONE',  ( 0.0000000000000000000, 0.0000000000000000000, -1.000000000000000000 ) ) ;
#268 = ADVANCED_FACE ( 'NONE', ( #102 ), #73, .T. ) ;
#269 = EDGE_LOOP ( 'NONE', ( #203, #155, #128, #231 ) ) ;
#270 = DIRECTION ( 'NONE',  ( 0.0000000000000000000, 0.0000000000000000000, -1.000000000000000000 ) ) ;
#271 = VERTEX_POINT ( 'NONE', #291 ) ;
#272 = DIRECTION ( 'NONE',  ( -0.0000000000000000000, -1.000000000000000000, -0.0000000000000000000 ) ) ;
#273 = ORIENTED_EDGE ( 'NONE', *, *, #42, .F. ) ;
#274 = EDGE_LOOP ( 'NONE', ( #201, #295, #250, #226 ) ) ;
#275 = PERSON_AND_ORGANIZATION ( #242, #97 ) ;
#276 = DIRECTION ( 'NONE',  ( -0.0000000000000000000, -1.000000000000000000, -0.0000000000000000000 ) ) ;
#277 = CALENDAR_DATE ( 2019, 16, 12 ) ;
#278 = DIRECTION ( 'NONE',  ( -1.000000000000000000, 0.0000000000000000000, 0.0000000000000000000 ) ) ;
#279 = ADVANCED_FACE ( 'NONE', ( #51 ), #151, .T. ) ;
#280 = CC_DESIGN_APPROVAL ( #233, ( #63 ) ) ;
#281 = CC_DESIGN_PERSON_AND_ORGANIZATION_ASSIGNMENT ( #243, #20, ( #63 ) ) ;
#282 = UNCERTAINTY_MEASURE_WITH_UNIT (LENGTH_MEASURE( 1.000000000000000082E-05 ), #34, 'distance_accuracy_value', 'NONE');
#283 = APPROVAL_STATUS ( 'not_yet_approved' ) ;
#284 = COORDINATED_UNIVERSAL_TIME_OFFSET ( 3, 0, .AHEAD. ) ;
#285 = DIRECTION ( 'NONE',  ( -0.0000000000000000000, -1.000000000000000000, -0.0000000000000000000 ) ) ;
#286 = DIRECTION ( 'NONE',  ( 0.0000000000000000000, 0.0000000000000000000, -1.000000000000000000 ) ) ;
#287 = DIRECTION ( 'NONE',  ( -0.0000000000000000000, -1.000000000000000000, -0.0000000000000000000 ) ) ;
#288 = EDGE_CURVE ( 'NONE', #12, #198, #64, .T. ) ;
#289 = CYLINDRICAL_SURFACE ( 'NONE', #90, 70.50000000000000000 ) ;
#290 = ORIENTED_EDGE ( 'NONE', *, *, #190, .F. ) ;
#291 = CARTESIAN_POINT ( 'NONE',  ( 0.0000000000000000000, 0.0000000000000000000, -70.50000000000000000 ) ) ;
#292 = APPROVAL_PERSON_ORGANIZATION ( #259, #59, #132 ) ;
#293 = VERTEX_POINT ( 'NONE', #202 ) ;
#294 = FACE_OUTER_BOUND ( 'NONE', #154, .T. ) ;
#295 = ORIENTED_EDGE ( 'NONE', *, *, #135, .T. ) ;
#296 =( NAMED_UNIT ( * ) SI_UNIT ( $, .STERADIAN. ) SOLID_ANGLE_UNIT ( ) );
#297 = ORIENTED_EDGE ( 'NONE', *, *, #17, .F. ) ;
#298 = MECHANICAL_CONTEXT ( 'NONE', #193, 'mechanical' ) ;
#299 = PERSON_AND_ORGANIZATION ( #242, #97 ) ;
#300 = DIRECTION ( 'NONE',  ( 0.0000000000000000000, 0.0000000000000000000, -1.000000000000000000 ) ) ;
#301 = ADVANCED_FACE ( 'NONE', ( #294 ), #79, .F. ) ;
#302 = DATE_AND_TIME ( #277, #200 ) ;
#303 = SECURITY_CLASSIFICATION_LEVEL ( 'unclassified' ) ;
#304 = DIRECTION ( 'NONE',  ( -0.0000000000000000000, -1.000000000000000000, -0.0000000000000000000 ) ) ;
#305 = APPROVAL_DATE_TIME ( #219, #195 ) ;
#306 = DIRECTION ( 'NONE',  ( -0.0000000000000000000, -1.000000000000000000, -0.0000000000000000000 ) ) ;
#307 = FACE_OUTER_BOUND ( 'NONE', #6, .T. ) ;
ENDSEC;
END-ISO-10303-21;
